ISO-10303-21;
HEADER;
FILE_DESCRIPTION (( 'STEP AP203' ),
    '1' );
FILE_NAME ('Q-QZWP-R4-10-795-M.STEP',
    '2020-12-23T01:22:29',
    ( '' ),
    ( '' ),
    'SwSTEP 2.0',
    'SolidWorks 2020',
    '' );
FILE_SCHEMA (( 'CONFIG_CONTROL_DESIGN' ));
ENDSEC;

DATA;
#1 = AXIS2_PLACEMENT_3D ( 'NONE', #88, #95, #276 ) ;
#2 = DIRECTION ( 'NONE',  ( 0.000000000000000000, 0.000000000000000000, 1.000000000000000000 ) ) ;
#3 = APPROVAL_STATUS ( 'not_yet_approved' ) ;
#4 = CARTESIAN_POINT ( 'NONE',  ( 0.000000000000000000, 0.000000000000000000, 0.000000000000000000 ) ) ;
#5 = PERSON_AND_ORGANIZATION ( #16, #63 ) ;
#6 = AXIS2_PLACEMENT_3D ( 'NONE', #252, #311, #127 ) ;
#7 = PRODUCT_RELATED_PRODUCT_CATEGORY ( 'detail', '', ( #290 ) ) ;
#8 = PERSON_AND_ORGANIZATION ( #16, #63 ) ;
#9 = DATE_AND_TIME ( #144, #287 ) ;
#10 = VERTEX_POINT ( 'NONE', #13 ) ;
#11 = CC_DESIGN_PERSON_AND_ORGANIZATION_ASSIGNMENT ( #319, #188, ( #270 ) ) ;
#12 = ORIENTED_EDGE ( 'NONE', *, *, #206, .T. ) ;
#13 = CARTESIAN_POINT ( 'NONE',  ( -3.000000000000000000, 0.000000000000000000, 12.69999999999999929 ) ) ;
#14 = CARTESIAN_POINT ( 'NONE',  ( 1.250000000000000444, 0.000000000000000000, 0.000000000000000000 ) ) ;
#15 = CARTESIAN_POINT ( 'NONE',  ( -3.000000000000000000, 0.000000000000000000, 0.000000000000000000 ) ) ;
#16 = PERSON ( 'UNSPECIFIED', 'UNSPECIFIED', 'UNSPECIFIED', ('UNSPECIFIED'), ('UNSPECIFIED'), ('UNSPECIFIED') ) ;
#17 = CC_DESIGN_APPROVAL ( #253, ( #270 ) ) ;
#18 = CARTESIAN_POINT ( 'NONE',  ( -3.000000000000000000, 1.555301434917138433E-15, -12.69999999999999929 ) ) ;
#19 = CARTESIAN_POINT ( 'NONE',  ( 1.250000000000000444, 0.000000000000000000, 0.000000000000000000 ) ) ;
#20 = DIRECTION ( 'NONE',  ( 0.000000000000000000, 0.000000000000000000, 1.000000000000000000 ) ) ;
#21 = AXIS2_PLACEMENT_3D ( 'NONE', #334, #142, #323 ) ;
#22 = CC_DESIGN_APPROVAL ( #93, ( #106 ) ) ;
#23 = FACE_OUTER_BOUND ( 'NONE', #152, .T. ) ;
#24 = DESIGN_CONTEXT ( 'detailed design', #84, 'design' ) ;
#25 = AXIS2_PLACEMENT_3D ( 'NONE', #330, #147, #107 ) ;
#26 = FACE_BOUND ( 'NONE', #102, .T. ) ;
#27 = APPROVAL_STATUS ( 'not_yet_approved' ) ;
#28 = EDGE_CURVE ( 'NONE', #250, #233, #41, .T. ) ;
#29 = DIRECTION ( 'NONE',  ( -1.000000000000000000, -0.000000000000000000, -0.000000000000000000 ) ) ;
#30 = SHAPE_DEFINITION_REPRESENTATION ( #134, #266 ) ;
#31 = CC_DESIGN_PERSON_AND_ORGANIZATION_ASSIGNMENT ( #36, #64, ( #290 ) ) ;
#32 = DIRECTION ( 'NONE',  ( 0.000000000000000000, 0.000000000000000000, 1.000000000000000000 ) ) ;
#33 = DATE_AND_TIME ( #87, #196 ) ;
#34 = AXIS2_PLACEMENT_3D ( 'NONE', #244, #301, #91 ) ;
#35 =( LENGTH_UNIT ( ) NAMED_UNIT ( * ) SI_UNIT ( .MILLI., .METRE. ) );
#36 = PERSON_AND_ORGANIZATION ( #16, #63 ) ;
#37 = ORIENTED_EDGE ( 'NONE', *, *, #295, .F. ) ;
#38 = VERTEX_POINT ( 'NONE', #97 ) ;
#39 = ORIENTED_EDGE ( 'NONE', *, *, #47, .F. ) ;
#40 = ORIENTED_EDGE ( 'NONE', *, *, #223, .T. ) ;
#41 = CIRCLE ( 'NONE', #6, 5.000000000000001776 ) ;
#42 = ORIENTED_EDGE ( 'NONE', *, *, #280, .T. ) ;
#43 = ORIENTED_EDGE ( 'NONE', *, *, #47, .T. ) ;
#44 = DIRECTION ( 'NONE',  ( -1.000000000000000000, -0.000000000000000000, -0.000000000000000000 ) ) ;
#45 = EDGE_CURVE ( 'NONE', #225, #226, #255, .T. ) ;
#46 = CARTESIAN_POINT ( 'NONE',  ( -1.614212418857619014, 1.555301434917138433E-15, -12.69999999999999929 ) ) ;
#47 = EDGE_CURVE ( 'NONE', #278, #67, #48, .T. ) ;
#48 = LINE ( 'NONE', #46, #156 ) ;
#49 = LOCAL_TIME ( 9, 22, 29.00000000000000000, #221 ) ;
#50 = DIRECTION ( 'NONE',  ( -1.000000000000000000, -0.000000000000000000, -0.000000000000000000 ) ) ;
#51 = APPLICATION_CONTEXT ( 'configuration controlled 3d designs of mechanical parts and assemblies' ) ;
#52 = EDGE_CURVE ( 'NONE', #246, #309, #216, .T. ) ;
#53 = CARTESIAN_POINT ( 'NONE',  ( 3.000000000000000000, 0.000000000000000000, 5.000000000000001776 ) ) ;
#54 = DIRECTION ( 'NONE',  ( 0.000000000000000000, 0.000000000000000000, 1.000000000000000000 ) ) ;
#55 = AXIS2_PLACEMENT_3D ( 'NONE', #164, #83, #86 ) ;
#56 = APPLICATION_PROTOCOL_DEFINITION ( 'international standard', 'config_control_design', 1994, #84 ) ;
#57 = CARTESIAN_POINT ( 'NONE',  ( 3.000000000000000000, 0.000000000000000000, 0.000000000000000000 ) ) ;
#58 = VECTOR ( 'NONE', #261, 1000.000000000000000 ) ;
#59 = CARTESIAN_POINT ( 'NONE',  ( -3.000000000000000000, 6.123233995736766282E-16, -5.000000000000000000 ) ) ;
#60 = ADVANCED_FACE ( 'NONE', ( #231 ), #204, .F. ) ;
#61 = PERSON_AND_ORGANIZATION ( #16, #63 ) ;
#62 = APPROVAL_ROLE ( '' ) ;
#63 = ORGANIZATION ( 'UNSPECIFIED', 'UNSPECIFIED', '' ) ;
#64 = PERSON_AND_ORGANIZATION_ROLE ( 'design_owner' ) ;
#65 = AXIS2_PLACEMENT_3D ( 'NONE', #19, #29, #214 ) ;
#66 = UNCERTAINTY_MEASURE_WITH_UNIT (LENGTH_MEASURE( 1.000000000000000082E-05 ), #35, 'distance_accuracy_value', 'NONE');
#67 = VERTEX_POINT ( 'NONE', #18 ) ;
#68 = CYLINDRICAL_SURFACE ( 'NONE', #163, 5.000000000000000888 ) ;
#69 = VERTEX_POINT ( 'NONE', #247 ) ;
#70 = ORIENTED_EDGE ( 'NONE', *, *, #198, .F. ) ;
#71 = ORIENTED_EDGE ( 'NONE', *, *, #130, .T. ) ;
#72 = CARTESIAN_POINT ( 'NONE',  ( 1.250000000000000444, 6.123233995736766282E-16, -5.000000000000000000 ) ) ;
#73 = AXIS2_PLACEMENT_3D ( 'NONE', #281, #327, #176 ) ;
#74 = CARTESIAN_POINT ( 'NONE',  ( 1.250000000000000222, 5.000000000000000000, 0.000000000000000000 ) ) ;
#75 = DIRECTION ( 'NONE',  ( -1.000000000000000000, -0.000000000000000000, -0.000000000000000000 ) ) ;
#76 = CYLINDRICAL_SURFACE ( 'NONE', #161, 12.69999999999999929 ) ;
#77 = APPROVAL_PERSON_ORGANIZATION ( #61, #93, #62 ) ;
#78 = EDGE_CURVE ( 'NONE', #309, #226, #308, .T. ) ;
#79 = CARTESIAN_POINT ( 'NONE',  ( -1.614212418857619014, 6.123233995736767268E-16, -5.000000000000000888 ) ) ;
#80 = LINE ( 'NONE', #315, #129 ) ;
#81 = AXIS2_PLACEMENT_3D ( 'NONE', #4, #32, #242 ) ;
#82 = EDGE_LOOP ( 'NONE', ( #149, #310 ) ) ;
#83 = DIRECTION ( 'NONE',  ( 1.000000000000000000, 0.000000000000000000, 0.000000000000000000 ) ) ;
#84 = APPLICATION_CONTEXT ( 'configuration controlled 3d designs of mechanical parts and assemblies' ) ;
#85 = APPROVAL_DATE_TIME ( #241, #253 ) ;
#86 = DIRECTION ( 'NONE',  ( 0.000000000000000000, 0.000000000000000000, -1.000000000000000000 ) ) ;
#87 = CALENDAR_DATE ( 2020, 23, 12 ) ;
#88 = CARTESIAN_POINT ( 'NONE',  ( -3.000000000000000000, 0.000000000000000000, 0.000000000000000000 ) ) ;
#89 = EDGE_CURVE ( 'NONE', #67, #10, #262, .T. ) ;
#90 = PERSON_AND_ORGANIZATION ( #16, #63 ) ;
#91 = DIRECTION ( 'NONE',  ( 0.000000000000000000, 0.000000000000000000, 1.000000000000000000 ) ) ;
#92 = ORIENTED_EDGE ( 'NONE', *, *, #326, .F. ) ;
#93 = APPROVAL ( #272, 'UNSPECIFIED' ) ;
#94 = ORIENTED_EDGE ( 'NONE', *, *, #223, .F. ) ;
#95 = DIRECTION ( 'NONE',  ( -1.000000000000000000, -0.000000000000000000, -0.000000000000000000 ) ) ;
#96 = APPROVAL_PERSON_ORGANIZATION ( #8, #109, #245 ) ;
#97 = CARTESIAN_POINT ( 'NONE',  ( 1.250000000000000444, 0.000000000000000000, 5.000000000000000000 ) ) ;
#98 = EDGE_LOOP ( 'NONE', ( #39, #40, #71, #174 ) ) ;
#99 = LINE ( 'NONE', #201, #208 ) ;
#100 = ORIENTED_EDGE ( 'NONE', *, *, #295, .T. ) ;
#101 = DIRECTION ( 'NONE',  ( -1.000000000000000000, -0.000000000000000000, -0.000000000000000000 ) ) ;
#102 = EDGE_LOOP ( 'NONE', ( #304, #200 ) ) ;
#103 = ADVANCED_FACE ( 'NONE', ( #306 ), #257, .F. ) ;
#104 = DIRECTION ( 'NONE',  ( -1.000000000000000000, -0.000000000000000000, -0.000000000000000000 ) ) ;
#105 = VECTOR ( 'NONE', #321, 1000.000000000000000 ) ;
#106 = SECURITY_CLASSIFICATION ( '', '', #218 ) ;
#107 = DIRECTION ( 'NONE',  ( 0.000000000000000000, 0.000000000000000000, -1.000000000000000000 ) ) ;
#108 = CARTESIAN_POINT ( 'NONE',  ( -1.614212418857619014, 0.000000000000000000, 0.000000000000000000 ) ) ;
#109 = APPROVAL ( #3, 'UNSPECIFIED' ) ;
#110 = CARTESIAN_POINT ( 'NONE',  ( -3.000000000000000000, 0.000000000000000000, 5.000000000000000000 ) ) ;
#111 = CIRCLE ( 'NONE', #236, 5.000000000000000000 ) ;
#112 = CARTESIAN_POINT ( 'NONE',  ( -1.250000000000000222, 0.000000000000000000, 5.000000000000000888 ) ) ;
#113 = FACE_OUTER_BOUND ( 'NONE', #282, .T. ) ;
#114 = AXIS2_PLACEMENT_3D ( 'NONE', #74, #124, #126 ) ;
#115 = PERSON_AND_ORGANIZATION_ROLE ( 'creator' ) ;
#116 = DIRECTION ( 'NONE',  ( -1.000000000000000000, -0.000000000000000000, -0.000000000000000000 ) ) ;
#117 = AXIS2_PLACEMENT_3D ( 'NONE', #205, #136, #181 ) ;
#118 = APPROVAL_ROLE ( '' ) ;
#119 = LINE ( 'NONE', #166, #105 ) ;
#120 = PERSON_AND_ORGANIZATION ( #16, #63 ) ;
#121 = DATE_TIME_ROLE ( 'classification_date' ) ;
#122 = ORIENTED_EDGE ( 'NONE', *, *, #297, .T. ) ;
#123 =( GEOMETRIC_REPRESENTATION_CONTEXT ( 3 ) GLOBAL_UNCERTAINTY_ASSIGNED_CONTEXT ( ( #66 ) ) GLOBAL_UNIT_ASSIGNED_CONTEXT ( ( #35, #189, #217 ) ) REPRESENTATION_CONTEXT ( 'NONE', 'WORKASPACE' ) );
#124 = DIRECTION ( 'NONE',  ( -1.000000000000000000, 0.000000000000000000, -0.000000000000000000 ) ) ;
#125 = EDGE_LOOP ( 'NONE', ( #263, #43, #92, #265 ) ) ;
#126 = DIRECTION ( 'NONE',  ( -0.000000000000000000, 0.000000000000000000, 1.000000000000000000 ) ) ;
#127 = DIRECTION ( 'NONE',  ( 0.000000000000000000, 0.000000000000000000, 1.000000000000000000 ) ) ;
#128 = ORIENTED_EDGE ( 'NONE', *, *, #52, .T. ) ;
#129 = VECTOR ( 'NONE', #50, 1000.000000000000000 ) ;
#130 = EDGE_CURVE ( 'NONE', #69, #10, #99, .T. ) ;
#131 = ORIENTED_EDGE ( 'NONE', *, *, #206, .F. ) ;
#132 = CARTESIAN_POINT ( 'NONE',  ( 3.000000000000000000, 6.123233995736768255E-16, -5.000000000000001776 ) ) ;
#133 = FACE_OUTER_BOUND ( 'NONE', #203, .T. ) ;
#134 = PRODUCT_DEFINITION_SHAPE ( 'NONE', 'NONE',  #270 ) ;
#135 = AXIS2_PLACEMENT_3D ( 'NONE', #335, #313, #314 ) ;
#136 = DIRECTION ( 'NONE',  ( 1.000000000000000000, 0.000000000000000000, 0.000000000000000000 ) ) ;
#137 = CC_DESIGN_PERSON_AND_ORGANIZATION_ASSIGNMENT ( #243, #300, ( #106 ) ) ;
#138 = APPROVAL_PERSON_ORGANIZATION ( #120, #253, #118 ) ;
#139 = COORDINATED_UNIVERSAL_TIME_OFFSET ( 8, 0, .AHEAD. ) ;
#140 = DIRECTION ( 'NONE',  ( 0.000000000000000000, 0.000000000000000000, 1.000000000000000000 ) ) ;
#141 = PLANE ( 'NONE',  #117 ) ;
#142 = DIRECTION ( 'NONE',  ( -1.000000000000000000, -0.000000000000000000, -0.000000000000000000 ) ) ;
#143 = CIRCLE ( 'NONE', #1, 5.000000000000000000 ) ;
#144 = CALENDAR_DATE ( 2020, 23, 12 ) ;
#145 = DATE_AND_TIME ( #169, #49 ) ;
#146 = ORIENTED_EDGE ( 'NONE', *, *, #162, .T. ) ;
#147 = DIRECTION ( 'NONE',  ( 1.000000000000000000, 0.000000000000000000, 0.000000000000000000 ) ) ;
#148 = AXIS2_PLACEMENT_3D ( 'NONE', #318, #316, #157 ) ;
#149 = ORIENTED_EDGE ( 'NONE', *, *, #170, .T. ) ;
#150 = CC_DESIGN_DATE_AND_TIME_ASSIGNMENT ( #145, #167, ( #270 ) ) ;
#151 = DIRECTION ( 'NONE',  ( 0.000000000000000000, 0.000000000000000000, 1.000000000000000000 ) ) ;
#152 = EDGE_LOOP ( 'NONE', ( #328, #279 ) ) ;
#153 = VERTEX_POINT ( 'NONE', #72 ) ;
#154 = FACE_OUTER_BOUND ( 'NONE', #307, .T. ) ;
#155 = ORIENTED_EDGE ( 'NONE', *, *, #52, .F. ) ;
#156 = VECTOR ( 'NONE', #230, 1000.000000000000000 ) ;
#157 = DIRECTION ( 'NONE',  ( -0.000000000000000000, 0.000000000000000000, 1.000000000000000000 ) ) ;
#158 = CARTESIAN_POINT ( 'NONE',  ( 3.000000000000000000, 1.555301434917138433E-15, -12.69999999999999929 ) ) ;
#159 = ADVANCED_FACE ( 'NONE', ( #154 ), #68, .F. ) ;
#160 = PLANE ( 'NONE',  #55 ) ;
#161 = AXIS2_PLACEMENT_3D ( 'NONE', #260, #178, #20 ) ;
#162 = EDGE_CURVE ( 'NONE', #38, #153, #111, .T. ) ;
#163 = AXIS2_PLACEMENT_3D ( 'NONE', #283, #44, #151 ) ;
#164 = CARTESIAN_POINT ( 'NONE',  ( -1.250000000000000222, 5.000000000000000000, 0.000000000000000000 ) ) ;
#165 = CARTESIAN_POINT ( 'NONE',  ( -1.614212418857619014, 0.000000000000000000, 0.000000000000000000 ) ) ;
#166 = CARTESIAN_POINT ( 'NONE',  ( -1.614212418857619014, 0.000000000000000000, 5.000000000000000888 ) ) ;
#167 = DATE_TIME_ROLE ( 'creation_date' ) ;
#168 = LOCAL_TIME ( 9, 22, 29.00000000000000000, #277 ) ;
#169 = CALENDAR_DATE ( 2020, 23, 12 ) ;
#170 = EDGE_CURVE ( 'NONE', #233, #250, #298, .T. ) ;
#171 = ORIENTED_EDGE ( 'NONE', *, *, #45, .T. ) ;
#172 = ORIENTED_EDGE ( 'NONE', *, *, #180, .T. ) ;
#173 = DIRECTION ( 'NONE',  ( -1.000000000000000000, -0.000000000000000000, -0.000000000000000000 ) ) ;
#174 = ORIENTED_EDGE ( 'NONE', *, *, #89, .F. ) ;
#175 = ORIENTED_EDGE ( 'NONE', *, *, #170, .F. ) ;
#176 = DIRECTION ( 'NONE',  ( 0.000000000000000000, 0.000000000000000000, 1.000000000000000000 ) ) ;
#177 = EDGE_LOOP ( 'NONE', ( #155, #213 ) ) ;
#178 = DIRECTION ( 'NONE',  ( -1.000000000000000000, -0.000000000000000000, -0.000000000000000000 ) ) ;
#179 = CC_DESIGN_APPROVAL ( #109, ( #238 ) ) ;
#180 = EDGE_CURVE ( 'NONE', #233, #38, #80, .T. ) ;
#181 = DIRECTION ( 'NONE',  ( 0.000000000000000000, 0.000000000000000000, -1.000000000000000000 ) ) ;
#182 = ADVANCED_FACE ( 'NONE', ( #113, #209 ), #269, .F. ) ;
#183 = LINE ( 'NONE', #79, #58 ) ;
#184 = CIRCLE ( 'NONE', #34, 12.69999999999999929 ) ;
#185 = CYLINDRICAL_SURFACE ( 'NONE', #292, 5.000000000000000888 ) ;
#186 = CIRCLE ( 'NONE', #268, 12.69999999999999929 ) ;
#187 = CARTESIAN_POINT ( 'NONE',  ( 3.000000000000000000, 0.000000000000000000, 0.000000000000000000 ) ) ;
#188 = PERSON_AND_ORGANIZATION_ROLE ( 'creator' ) ;
#189 =( NAMED_UNIT ( * ) PLANE_ANGLE_UNIT ( ) SI_UNIT ( $, .RADIAN. ) );
#190 = CC_DESIGN_PERSON_AND_ORGANIZATION_ASSIGNMENT ( #90, #273, ( #238 ) ) ;
#191 = CALENDAR_DATE ( 2020, 23, 12 ) ;
#192 = APPLICATION_PROTOCOL_DEFINITION ( 'international standard', 'config_control_design', 1994, #51 ) ;
#193 = COORDINATED_UNIVERSAL_TIME_OFFSET ( 8, 0, .AHEAD. ) ;
#194 = ADVANCED_FACE ( 'NONE', ( #288 ), #160, .F. ) ;
#195 = AXIS2_PLACEMENT_3D ( 'NONE', #187, #299, #234 ) ;
#196 = LOCAL_TIME ( 9, 22, 29.00000000000000000, #322 ) ;
#197 = ORIENTED_EDGE ( 'NONE', *, *, #220, .T. ) ;
#198 = EDGE_CURVE ( 'NONE', #69, #278, #186, .T. ) ;
#199 = EDGE_LOOP ( 'NONE', ( #128, #324, #122, #37 ) ) ;
#200 = ORIENTED_EDGE ( 'NONE', *, *, #297, .F. ) ;
#201 = CARTESIAN_POINT ( 'NONE',  ( -1.614212418857619014, 0.000000000000000000, 12.69999999999999929 ) ) ;
#202 = CIRCLE ( 'NONE', #195, 12.69999999999999929 ) ;
#203 = EDGE_LOOP ( 'NONE', ( #248, #12, #197, #224 ) ) ;
#204 = PLANE ( 'NONE',  #114 ) ;
#205 = CARTESIAN_POINT ( 'NONE',  ( -3.000000000000000000, 5.000000000000000000, 0.000000000000000000 ) ) ;
#206 = EDGE_CURVE ( 'NONE', #250, #153, #183, .T. ) ;
#207 = DIRECTION ( 'NONE',  ( 0.000000000000000000, 0.000000000000000000, 1.000000000000000000 ) ) ;
#208 = VECTOR ( 'NONE', #101, 1000.000000000000000 ) ;
#209 = FACE_BOUND ( 'NONE', #82, .T. ) ;
#210 = FACE_OUTER_BOUND ( 'NONE', #98, .T. ) ;
#211 = AXIS2_PLACEMENT_3D ( 'NONE', #57, #116, #2 ) ;
#212 = MANIFOLD_SOLID_BREP ( 'Ðý×', #317 ) ;
#213 = ORIENTED_EDGE ( 'NONE', *, *, #280, .F. ) ;
#214 = DIRECTION ( 'NONE',  ( 0.000000000000000000, 0.000000000000000000, 1.000000000000000000 ) ) ;
#215 = DATE_AND_TIME ( #239, #293 ) ;
#216 = CIRCLE ( 'NONE', #25, 5.000000000000000888 ) ;
#217 =( NAMED_UNIT ( * ) SI_UNIT ( $, .STERADIAN. ) SOLID_ANGLE_UNIT ( ) );
#218 = SECURITY_CLASSIFICATION_LEVEL ( 'unclassified' ) ;
#219 = CARTESIAN_POINT ( 'NONE',  ( -1.250000000000000222, 6.123233995736767268E-16, -5.000000000000000888 ) ) ;
#220 = EDGE_CURVE ( 'NONE', #153, #38, #329, .T. ) ;
#221 = COORDINATED_UNIVERSAL_TIME_OFFSET ( 8, 0, .AHEAD. ) ;
#222 = MECHANICAL_CONTEXT ( 'NONE', #51, 'mechanical' ) ;
#223 = EDGE_CURVE ( 'NONE', #278, #69, #202, .T. ) ;
#224 = ORIENTED_EDGE ( 'NONE', *, *, #180, .F. ) ;
#225 = VERTEX_POINT ( 'NONE', #110 ) ;
#226 = VERTEX_POINT ( 'NONE', #59 ) ;
#227 = CARTESIAN_POINT ( 'NONE',  ( -1.614212418857619014, 6.123233995736767268E-16, -5.000000000000000888 ) ) ;
#228 = ORIENTED_EDGE ( 'NONE', *, *, #78, .F. ) ;
#229 = CC_DESIGN_PERSON_AND_ORGANIZATION_ASSIGNMENT ( #5, #115, ( #238 ) ) ;
#230 = DIRECTION ( 'NONE',  ( -1.000000000000000000, -0.000000000000000000, -0.000000000000000000 ) ) ;
#231 = FACE_OUTER_BOUND ( 'NONE', #274, .T. ) ;
#232 = ADVANCED_FACE ( 'NONE', ( #26, #23 ), #141, .F. ) ;
#233 = VERTEX_POINT ( 'NONE', #53 ) ;
#234 = DIRECTION ( 'NONE',  ( 0.000000000000000000, 0.000000000000000000, 1.000000000000000000 ) ) ;
#235 = CYLINDRICAL_SURFACE ( 'NONE', #21, 12.69999999999999929 ) ;
#236 = AXIS2_PLACEMENT_3D ( 'NONE', #14, #296, #240 ) ;
#237 = DIRECTION ( 'NONE',  ( -1.000000000000000000, -0.000000000000000000, -0.000000000000000000 ) ) ;
#238 = PRODUCT_DEFINITION_FORMATION_WITH_SPECIFIED_SOURCE ( 'ANY', '', #290, .NOT_KNOWN. ) ;
#239 = CALENDAR_DATE ( 2020, 23, 12 ) ;
#240 = DIRECTION ( 'NONE',  ( 0.000000000000000000, 0.000000000000000000, 1.000000000000000000 ) ) ;
#241 = DATE_AND_TIME ( #191, #168 ) ;
#242 = DIRECTION ( 'NONE',  ( 1.000000000000000000, 0.000000000000000000, 0.000000000000000000 ) ) ;
#243 = PERSON_AND_ORGANIZATION ( #16, #63 ) ;
#244 = CARTESIAN_POINT ( 'NONE',  ( -3.000000000000000000, 0.000000000000000000, 0.000000000000000000 ) ) ;
#245 = APPROVAL_ROLE ( '' ) ;
#246 = VERTEX_POINT ( 'NONE', #112 ) ;
#247 = CARTESIAN_POINT ( 'NONE',  ( 3.000000000000000000, 0.000000000000000000, 12.69999999999999929 ) ) ;
#248 = ORIENTED_EDGE ( 'NONE', *, *, #28, .F. ) ;
#249 = AXIS2_PLACEMENT_3D ( 'NONE', #285, #75, #286 ) ;
#250 = VERTEX_POINT ( 'NONE', #132 ) ;
#251 = ADVANCED_FACE ( 'NONE', ( #133 ), #185, .F. ) ;
#252 = CARTESIAN_POINT ( 'NONE',  ( 3.000000000000000000, 0.000000000000000000, 0.000000000000000000 ) ) ;
#253 = APPROVAL ( #27, 'UNSPECIFIED' ) ;
#254 = ORIENTED_EDGE ( 'NONE', *, *, #162, .F. ) ;
#255 = CIRCLE ( 'NONE', #333, 5.000000000000000000 ) ;
#256 = AXIS2_PLACEMENT_3D ( 'NONE', #108, #332, #207 ) ;
#257 = CYLINDRICAL_SURFACE ( 'NONE', #249, 5.000000000000000888 ) ;
#258 = CC_DESIGN_SECURITY_CLASSIFICATION ( #106, ( #238 ) ) ;
#259 = CARTESIAN_POINT ( 'NONE',  ( 3.000000000000000000, 0.000000000000000000, 0.000000000000000000 ) ) ;
#260 = CARTESIAN_POINT ( 'NONE',  ( -1.614212418857619014, 0.000000000000000000, 0.000000000000000000 ) ) ;
#261 = DIRECTION ( 'NONE',  ( -1.000000000000000000, -0.000000000000000000, -0.000000000000000000 ) ) ;
#262 = CIRCLE ( 'NONE', #73, 12.69999999999999929 ) ;
#263 = ORIENTED_EDGE ( 'NONE', *, *, #198, .T. ) ;
#264 = ADVANCED_FACE ( 'NONE', ( #271 ), #331, .F. ) ;
#265 = ORIENTED_EDGE ( 'NONE', *, *, #130, .F. ) ;
#266 = ADVANCED_BREP_SHAPE_REPRESENTATION ( 'Q-QZWP-R4-10-795-M', ( #212, #81 ), #123 ) ;
#267 = APPROVAL_DATE_TIME ( #9, #109 ) ;
#268 = AXIS2_PLACEMENT_3D ( 'NONE', #259, #291, #54 ) ;
#269 = PLANE ( 'NONE',  #148 ) ;
#270 = PRODUCT_DEFINITION ( 'UNKNOWN', '', #238, #24 ) ;
#271 = FACE_OUTER_BOUND ( 'NONE', #199, .T. ) ;
#272 = APPROVAL_STATUS ( 'not_yet_approved' ) ;
#273 = PERSON_AND_ORGANIZATION_ROLE ( 'design_supplier' ) ;
#274 = EDGE_LOOP ( 'NONE', ( #254, #312 ) ) ;
#275 = CC_DESIGN_DATE_AND_TIME_ASSIGNMENT ( #33, #121, ( #106 ) ) ;
#276 = DIRECTION ( 'NONE',  ( 0.000000000000000000, 0.000000000000000000, 1.000000000000000000 ) ) ;
#277 = COORDINATED_UNIVERSAL_TIME_OFFSET ( 8, 0, .AHEAD. ) ;
#278 = VERTEX_POINT ( 'NONE', #158 ) ;
#279 = ORIENTED_EDGE ( 'NONE', *, *, #89, .T. ) ;
#280 = EDGE_CURVE ( 'NONE', #309, #246, #320, .T. ) ;
#281 = CARTESIAN_POINT ( 'NONE',  ( -3.000000000000000000, 0.000000000000000000, 0.000000000000000000 ) ) ;
#282 = EDGE_LOOP ( 'NONE', ( #70, #94 ) ) ;
#283 = CARTESIAN_POINT ( 'NONE',  ( -1.614212418857619014, 0.000000000000000000, 0.000000000000000000 ) ) ;
#284 = ADVANCED_FACE ( 'NONE', ( #210 ), #76, .T. ) ;
#285 = CARTESIAN_POINT ( 'NONE',  ( -1.614212418857619014, 0.000000000000000000, 0.000000000000000000 ) ) ;
#286 = DIRECTION ( 'NONE',  ( 0.000000000000000000, 0.000000000000000000, 1.000000000000000000 ) ) ;
#287 = LOCAL_TIME ( 9, 22, 29.00000000000000000, #139 ) ;
#288 = FACE_OUTER_BOUND ( 'NONE', #177, .T. ) ;
#289 = FACE_OUTER_BOUND ( 'NONE', #125, .T. ) ;
#290 = PRODUCT ( 'Q-QZWP-R4-10-795-M', 'Q-QZWP-R4-10-795-M', '', ( #222 ) ) ;
#291 = DIRECTION ( 'NONE',  ( -1.000000000000000000, -0.000000000000000000, -0.000000000000000000 ) ) ;
#292 = AXIS2_PLACEMENT_3D ( 'NONE', #165, #237, #140 ) ;
#293 = LOCAL_TIME ( 9, 22, 29.00000000000000000, #193 ) ;
#294 = ADVANCED_FACE ( 'NONE', ( #289 ), #235, .T. ) ;
#295 = EDGE_CURVE ( 'NONE', #246, #225, #119, .T. ) ;
#296 = DIRECTION ( 'NONE',  ( -1.000000000000000000, -0.000000000000000000, -0.000000000000000000 ) ) ;
#297 = EDGE_CURVE ( 'NONE', #226, #225, #143, .T. ) ;
#298 = CIRCLE ( 'NONE', #211, 5.000000000000001776 ) ;
#299 = DIRECTION ( 'NONE',  ( -1.000000000000000000, -0.000000000000000000, -0.000000000000000000 ) ) ;
#300 = PERSON_AND_ORGANIZATION_ROLE ( 'classification_officer' ) ;
#301 = DIRECTION ( 'NONE',  ( -1.000000000000000000, -0.000000000000000000, -0.000000000000000000 ) ) ;
#302 = APPROVAL_DATE_TIME ( #215, #93 ) ;
#303 = VECTOR ( 'NONE', #173, 1000.000000000000000 ) ;
#304 = ORIENTED_EDGE ( 'NONE', *, *, #45, .F. ) ;
#305 = EDGE_LOOP ( 'NONE', ( #131, #175, #172, #146 ) ) ;
#306 = FACE_OUTER_BOUND ( 'NONE', #305, .T. ) ;
#307 = EDGE_LOOP ( 'NONE', ( #228, #42, #100, #171 ) ) ;
#308 = LINE ( 'NONE', #227, #303 ) ;
#309 = VERTEX_POINT ( 'NONE', #219 ) ;
#310 = ORIENTED_EDGE ( 'NONE', *, *, #28, .T. ) ;
#311 = DIRECTION ( 'NONE',  ( -1.000000000000000000, -0.000000000000000000, -0.000000000000000000 ) ) ;
#312 = ORIENTED_EDGE ( 'NONE', *, *, #220, .F. ) ;
#313 = DIRECTION ( 'NONE',  ( 1.000000000000000000, 0.000000000000000000, 0.000000000000000000 ) ) ;
#314 = DIRECTION ( 'NONE',  ( 0.000000000000000000, 0.000000000000000000, -1.000000000000000000 ) ) ;
#315 = CARTESIAN_POINT ( 'NONE',  ( -1.614212418857619014, 0.000000000000000000, 5.000000000000000888 ) ) ;
#316 = DIRECTION ( 'NONE',  ( -1.000000000000000000, 0.000000000000000000, -0.000000000000000000 ) ) ;
#317 = CLOSED_SHELL ( 'NONE', ( #294, #264, #251, #60, #103, #159, #232, #284, #182, #194 ) ) ;
#318 = CARTESIAN_POINT ( 'NONE',  ( 3.000000000000000000, 12.69999999999999929, 0.000000000000000000 ) ) ;
#319 = PERSON_AND_ORGANIZATION ( #16, #63 ) ;
#320 = CIRCLE ( 'NONE', #135, 5.000000000000000888 ) ;
#321 = DIRECTION ( 'NONE',  ( -1.000000000000000000, -0.000000000000000000, -0.000000000000000000 ) ) ;
#322 = COORDINATED_UNIVERSAL_TIME_OFFSET ( 8, 0, .AHEAD. ) ;
#323 = DIRECTION ( 'NONE',  ( 0.000000000000000000, 0.000000000000000000, 1.000000000000000000 ) ) ;
#324 = ORIENTED_EDGE ( 'NONE', *, *, #78, .T. ) ;
#325 = DIRECTION ( 'NONE',  ( 0.000000000000000000, 0.000000000000000000, 1.000000000000000000 ) ) ;
#326 = EDGE_CURVE ( 'NONE', #10, #67, #184, .T. ) ;
#327 = DIRECTION ( 'NONE',  ( -1.000000000000000000, -0.000000000000000000, -0.000000000000000000 ) ) ;
#328 = ORIENTED_EDGE ( 'NONE', *, *, #326, .T. ) ;
#329 = CIRCLE ( 'NONE', #65, 5.000000000000000000 ) ;
#330 = CARTESIAN_POINT ( 'NONE',  ( -1.250000000000000222, 0.000000000000000000, 0.000000000000000000 ) ) ;
#331 = CYLINDRICAL_SURFACE ( 'NONE', #256, 5.000000000000000888 ) ;
#332 = DIRECTION ( 'NONE',  ( -1.000000000000000000, -0.000000000000000000, -0.000000000000000000 ) ) ;
#333 = AXIS2_PLACEMENT_3D ( 'NONE', #15, #104, #325 ) ;
#334 = CARTESIAN_POINT ( 'NONE',  ( -1.614212418857619014, 0.000000000000000000, 0.000000000000000000 ) ) ;
#335 = CARTESIAN_POINT ( 'NONE',  ( -1.250000000000000222, 0.000000000000000000, 0.000000000000000000 ) ) ;
ENDSEC;
END-ISO-10303-21;
